ISO-10303-21;
HEADER;
/* Generated by software containing ST-Developer
 * from STEP Tools, Inc. (www.steptools.com) 
 */
/* OPTION: strings as raw bytes, not using required /X/ escapes */

FILE_DESCRIPTION(
/* description */ ('Unknown'),
/* implementation_level */ '2;1');

FILE_NAME(
/* name */ '10265948B',
/* time_stamp */ '2024-07-31T14:10:41+02:00',
/* author */ ('Unknown'),
/* organization */ ('Baumer'),
/* preprocessor_version */ 'ST-DEVELOPER v16.7',
/* originating_system */ 'Solid Edge',
/* authorisation */ 'Unknown');

FILE_SCHEMA (('AUTOMOTIVE_DESIGN {1 0 10303 214 3 1 1}'));
ENDSEC;

DATA;
#10=PROPERTY_DEFINITION_REPRESENTATION(#14,#12);
#11=PROPERTY_DEFINITION_REPRESENTATION(#15,#13);
#12=REPRESENTATION('',(#16),#301);
#13=REPRESENTATION('',(#17),#301);
#14=PROPERTY_DEFINITION('pmi validation property','',#306);
#15=PROPERTY_DEFINITION('pmi validation property','',#306);
#16=VALUE_REPRESENTATION_ITEM('number of annotations',COUNT_MEASURE(0.));
#17=VALUE_REPRESENTATION_ITEM('number of views',COUNT_MEASURE(0.));
#18=SHAPE_REPRESENTATION_RELATIONSHIP('','',#205,#19);
#19=ADVANCED_BREP_SHAPE_REPRESENTATION('',(#203),#301);
#20=CONICAL_SURFACE('',#221,15.1455,0.401425727958696);
#21=CONICAL_SURFACE('',#223,12.8108885108472,1.22173047639603);
#22=CONICAL_SURFACE('',#224,27.5,0.785398163397448);
#23=CONICAL_SURFACE('',#225,26.5,0.785398163397449);
#24=CONICAL_SURFACE('',#226,2.03597530358247E-15,0.785398163397448);
#25=CYLINDRICAL_SURFACE('',#210,15.1455);
#26=CYLINDRICAL_SURFACE('',#213,27.5);
#27=CYLINDRICAL_SURFACE('',#219,15.1455);
#28=ORIENTED_EDGE('',*,*,#48,.T.);
#29=ORIENTED_EDGE('',*,*,#49,.F.);
#30=ORIENTED_EDGE('',*,*,#50,.F.);
#31=ORIENTED_EDGE('',*,*,#51,.T.);
#32=ORIENTED_EDGE('',*,*,#52,.T.);
#33=ORIENTED_EDGE('',*,*,#53,.T.);
#34=ORIENTED_EDGE('',*,*,#54,.T.);
#35=ORIENTED_EDGE('',*,*,#55,.T.);
#36=ORIENTED_EDGE('',*,*,#56,.T.);
#37=ORIENTED_EDGE('',*,*,#51,.F.);
#38=ORIENTED_EDGE('',*,*,#57,.T.);
#39=ORIENTED_EDGE('',*,*,#50,.T.);
#40=ORIENTED_EDGE('',*,*,#49,.T.);
#41=ORIENTED_EDGE('',*,*,#57,.F.);
#42=ORIENTED_EDGE('',*,*,#55,.F.);
#43=ORIENTED_EDGE('',*,*,#53,.F.);
#44=ORIENTED_EDGE('',*,*,#52,.F.);
#45=ORIENTED_EDGE('',*,*,#48,.F.);
#46=ORIENTED_EDGE('',*,*,#54,.F.);
#47=ORIENTED_EDGE('',*,*,#56,.F.);
#48=EDGE_CURVE('',#58,#58,#68,.F.);
#49=EDGE_CURVE('',#59,#59,#69,.T.);
#50=EDGE_CURVE('',#60,#60,#70,.T.);
#51=EDGE_CURVE('',#61,#61,#71,.T.);
#52=EDGE_CURVE('',#62,#62,#72,.T.);
#53=EDGE_CURVE('',#63,#63,#73,.T.);
#54=EDGE_CURVE('',#64,#64,#74,.T.);
#55=EDGE_CURVE('',#65,#65,#75,.F.);
#56=EDGE_CURVE('',#66,#66,#76,.T.);
#57=EDGE_CURVE('',#67,#67,#77,.T.);
#58=VERTEX_POINT('',#272);
#59=VERTEX_POINT('',#274);
#60=VERTEX_POINT('',#277);
#61=VERTEX_POINT('',#279);
#62=VERTEX_POINT('',#282);
#63=VERTEX_POINT('',#284);
#64=VERTEX_POINT('',#287);
#65=VERTEX_POINT('',#289);
#66=VERTEX_POINT('',#292);
#67=VERTEX_POINT('',#295);
#68=CIRCLE('',#208,26.5);
#69=CIRCLE('',#209,15.5583659303018);
#70=CIRCLE('',#211,15.1455);
#71=CIRCLE('',#212,15.1455);
#72=CIRCLE('',#214,27.5);
#73=CIRCLE('',#215,27.5);
#74=CIRCLE('',#217,16.625);
#75=CIRCLE('',#218,25.5);
#76=CIRCLE('',#220,15.1455);
#77=CIRCLE('',#222,12.8108885108472);
#78=EDGE_LOOP('',(#28));
#79=EDGE_LOOP('',(#29));
#80=EDGE_LOOP('',(#30));
#81=EDGE_LOOP('',(#31));
#82=EDGE_LOOP('',(#32));
#83=EDGE_LOOP('',(#33));
#84=EDGE_LOOP('',(#34));
#85=EDGE_LOOP('',(#35));
#86=EDGE_LOOP('',(#36));
#87=EDGE_LOOP('',(#37));
#88=EDGE_LOOP('',(#38));
#89=EDGE_LOOP('',(#39));
#90=EDGE_LOOP('',(#40));
#91=EDGE_LOOP('',(#41));
#92=EDGE_LOOP('',(#42));
#93=EDGE_LOOP('',(#43));
#94=EDGE_LOOP('',(#44));
#95=EDGE_LOOP('',(#45));
#96=EDGE_LOOP('',(#46));
#97=EDGE_LOOP('',(#47));
#98=FACE_BOUND('',#78,.T.);
#99=FACE_BOUND('',#79,.T.);
#100=FACE_BOUND('',#80,.T.);
#101=FACE_BOUND('',#81,.T.);
#102=FACE_BOUND('',#82,.T.);
#103=FACE_BOUND('',#83,.T.);
#104=FACE_BOUND('',#84,.T.);
#105=FACE_BOUND('',#85,.T.);
#106=FACE_BOUND('',#86,.T.);
#107=FACE_BOUND('',#87,.T.);
#108=FACE_BOUND('',#88,.T.);
#109=FACE_BOUND('',#89,.T.);
#110=FACE_BOUND('',#90,.T.);
#111=FACE_BOUND('',#91,.T.);
#112=FACE_BOUND('',#92,.T.);
#113=FACE_BOUND('',#93,.T.);
#114=FACE_BOUND('',#94,.T.);
#115=FACE_BOUND('',#95,.T.);
#116=FACE_BOUND('',#96,.T.);
#117=FACE_BOUND('',#97,.T.);
#118=PLANE('',#207);
#119=PLANE('',#216);
#120=STYLED_ITEM('',(#130),#192);
#121=STYLED_ITEM('',(#131),#193);
#122=STYLED_ITEM('',(#132),#194);
#123=STYLED_ITEM('',(#133),#195);
#124=STYLED_ITEM('',(#134),#196);
#125=STYLED_ITEM('',(#135),#197);
#126=STYLED_ITEM('',(#136),#198);
#127=STYLED_ITEM('',(#137),#199);
#128=STYLED_ITEM('',(#138),#200);
#129=STYLED_ITEM('',(#139),#201);
#130=PRESENTATION_STYLE_ASSIGNMENT((#140));
#131=PRESENTATION_STYLE_ASSIGNMENT((#141));
#132=PRESENTATION_STYLE_ASSIGNMENT((#142));
#133=PRESENTATION_STYLE_ASSIGNMENT((#143));
#134=PRESENTATION_STYLE_ASSIGNMENT((#144));
#135=PRESENTATION_STYLE_ASSIGNMENT((#145));
#136=PRESENTATION_STYLE_ASSIGNMENT((#146));
#137=PRESENTATION_STYLE_ASSIGNMENT((#147));
#138=PRESENTATION_STYLE_ASSIGNMENT((#148));
#139=PRESENTATION_STYLE_ASSIGNMENT((#149));
#140=SURFACE_STYLE_USAGE(.BOTH.,#150);
#141=SURFACE_STYLE_USAGE(.BOTH.,#151);
#142=SURFACE_STYLE_USAGE(.BOTH.,#152);
#143=SURFACE_STYLE_USAGE(.BOTH.,#153);
#144=SURFACE_STYLE_USAGE(.BOTH.,#154);
#145=SURFACE_STYLE_USAGE(.BOTH.,#155);
#146=SURFACE_STYLE_USAGE(.BOTH.,#156);
#147=SURFACE_STYLE_USAGE(.BOTH.,#157);
#148=SURFACE_STYLE_USAGE(.BOTH.,#158);
#149=SURFACE_STYLE_USAGE(.BOTH.,#159);
#150=SURFACE_SIDE_STYLE('',(#160));
#151=SURFACE_SIDE_STYLE('',(#161));
#152=SURFACE_SIDE_STYLE('',(#162));
#153=SURFACE_SIDE_STYLE('',(#163));
#154=SURFACE_SIDE_STYLE('',(#164));
#155=SURFACE_SIDE_STYLE('',(#165));
#156=SURFACE_SIDE_STYLE('',(#166));
#157=SURFACE_SIDE_STYLE('',(#167));
#158=SURFACE_SIDE_STYLE('',(#168));
#159=SURFACE_SIDE_STYLE('',(#169));
#160=SURFACE_STYLE_FILL_AREA(#170);
#161=SURFACE_STYLE_FILL_AREA(#171);
#162=SURFACE_STYLE_FILL_AREA(#172);
#163=SURFACE_STYLE_FILL_AREA(#173);
#164=SURFACE_STYLE_FILL_AREA(#174);
#165=SURFACE_STYLE_FILL_AREA(#175);
#166=SURFACE_STYLE_FILL_AREA(#176);
#167=SURFACE_STYLE_FILL_AREA(#177);
#168=SURFACE_STYLE_FILL_AREA(#178);
#169=SURFACE_STYLE_FILL_AREA(#179);
#170=FILL_AREA_STYLE('',(#180));
#171=FILL_AREA_STYLE('',(#181));
#172=FILL_AREA_STYLE('',(#182));
#173=FILL_AREA_STYLE('',(#183));
#174=FILL_AREA_STYLE('',(#184));
#175=FILL_AREA_STYLE('',(#185));
#176=FILL_AREA_STYLE('',(#186));
#177=FILL_AREA_STYLE('',(#187));
#178=FILL_AREA_STYLE('',(#188));
#179=FILL_AREA_STYLE('',(#189));
#180=FILL_AREA_STYLE_COLOUR('',#190);
#181=FILL_AREA_STYLE_COLOUR('',#190);
#182=FILL_AREA_STYLE_COLOUR('',#190);
#183=FILL_AREA_STYLE_COLOUR('',#190);
#184=FILL_AREA_STYLE_COLOUR('',#191);
#185=FILL_AREA_STYLE_COLOUR('',#190);
#186=FILL_AREA_STYLE_COLOUR('',#190);
#187=FILL_AREA_STYLE_COLOUR('',#190);
#188=FILL_AREA_STYLE_COLOUR('',#190);
#189=FILL_AREA_STYLE_COLOUR('',#190);
#190=COLOUR_RGB('',0.689999997615814,0.769999980926514,0.870000004768372);
#191=COLOUR_RGB('',0.396078497171402,0.941176474094391,0.450980395078659);
#192=ADVANCED_FACE('',(#98,#99),#118,.F.);
#193=ADVANCED_FACE('',(#100,#101),#25,.F.);
#194=ADVANCED_FACE('',(#102,#103),#26,.T.);
#195=ADVANCED_FACE('',(#104,#105),#119,.F.);
#196=ADVANCED_FACE('',(#106,#107),#27,.F.);
#197=ADVANCED_FACE('',(#108,#109),#20,.F.);
#198=ADVANCED_FACE('',(#110,#111),#21,.F.);
#199=ADVANCED_FACE('',(#112,#113),#22,.T.);
#200=ADVANCED_FACE('',(#114,#115),#23,.T.);
#201=ADVANCED_FACE('',(#116,#117),#24,.F.);
#202=CLOSED_SHELL('',(#192,#193,#194,#195,#196,#197,#198,#199,#200,#201));
#203=MANIFOLD_SOLID_BREP('',#202);
#204=SHAPE_DEFINITION_REPRESENTATION(#306,#205);
#205=SHAPE_REPRESENTATION('10265948',(#206),#301);
#206=AXIS2_PLACEMENT_3D('',#269,#227,#228);
#207=AXIS2_PLACEMENT_3D('',#270,#229,#230);
#208=AXIS2_PLACEMENT_3D('',#271,#231,#232);
#209=AXIS2_PLACEMENT_3D('',#273,#233,#234);
#210=AXIS2_PLACEMENT_3D('',#275,#235,#236);
#211=AXIS2_PLACEMENT_3D('',#276,#237,#238);
#212=AXIS2_PLACEMENT_3D('',#278,#239,#240);
#213=AXIS2_PLACEMENT_3D('',#280,#241,#242);
#214=AXIS2_PLACEMENT_3D('',#281,#243,#244);
#215=AXIS2_PLACEMENT_3D('',#283,#245,#246);
#216=AXIS2_PLACEMENT_3D('',#285,#247,#248);
#217=AXIS2_PLACEMENT_3D('',#286,#249,#250);
#218=AXIS2_PLACEMENT_3D('',#288,#251,#252);
#219=AXIS2_PLACEMENT_3D('',#290,#253,#254);
#220=AXIS2_PLACEMENT_3D('',#291,#255,#256);
#221=AXIS2_PLACEMENT_3D('',#293,#257,#258);
#222=AXIS2_PLACEMENT_3D('',#294,#259,#260);
#223=AXIS2_PLACEMENT_3D('',#296,#261,#262);
#224=AXIS2_PLACEMENT_3D('',#297,#263,#264);
#225=AXIS2_PLACEMENT_3D('',#298,#265,#266);
#226=AXIS2_PLACEMENT_3D('',#299,#267,#268);
#227=DIRECTION('',(0.,0.,1.));
#228=DIRECTION('',(1.,0.,0.));
#229=DIRECTION('',(0.,0.,1.));
#230=DIRECTION('',(1.,0.,0.));
#231=DIRECTION('',(0.,0.,1.));
#232=DIRECTION('',(1.,0.,0.));
#233=DIRECTION('',(0.,0.,-1.));
#234=DIRECTION('',(-1.,0.,0.));
#235=DIRECTION('',(0.,0.,-1.));
#236=DIRECTION('',(0.,-1.,0.));
#237=DIRECTION('',(0.,0.,1.));
#238=DIRECTION('',(0.,-1.,0.));
#239=DIRECTION('',(0.,0.,1.));
#240=DIRECTION('',(0.,-1.,0.));
#241=DIRECTION('',(0.,0.,-1.));
#242=DIRECTION('',(-1.,0.,0.));
#243=DIRECTION('',(0.,0.,1.));
#244=DIRECTION('',(1.,0.,0.));
#245=DIRECTION('',(0.,0.,-1.));
#246=DIRECTION('',(-1.,0.,0.));
#247=DIRECTION('',(0.,0.,-1.));
#248=DIRECTION('',(-1.,0.,0.));
#249=DIRECTION('',(0.,0.,-1.));
#250=DIRECTION('',(-1.,0.,0.));
#251=DIRECTION('',(0.,0.,-1.));
#252=DIRECTION('',(-1.,0.,0.));
#253=DIRECTION('',(0.,0.,-1.));
#254=DIRECTION('',(0.,-1.,0.));
#255=DIRECTION('',(0.,0.,1.));
#256=DIRECTION('',(1.,0.,0.));
#257=DIRECTION('',(0.,0.,1.));
#258=DIRECTION('',(1.,0.,0.));
#259=DIRECTION('',(0.,0.,-1.));
#260=DIRECTION('',(-1.,0.,0.));
#261=DIRECTION('',(0.,0.,-1.));
#262=DIRECTION('',(-1.,0.,0.));
#263=DIRECTION('',(0.,0.,-1.));
#264=DIRECTION('',(-1.,0.,0.));
#265=DIRECTION('',(0.,0.,1.));
#266=DIRECTION('',(1.,0.,0.));
#267=DIRECTION('',(0.,0.,1.));
#268=DIRECTION('',(1.,0.,0.));
#269=CARTESIAN_POINT('',(0.,0.,0.));
#270=CARTESIAN_POINT('',(-27.5,0.,0.));
#271=CARTESIAN_POINT('',(0.,0.,0.));
#272=CARTESIAN_POINT('',(26.5,0.,0.));
#273=CARTESIAN_POINT('',(0.,0.,0.));
#274=CARTESIAN_POINT('',(-15.5583659303018,0.,0.));
#275=CARTESIAN_POINT('',(0.,0.,23.));
#276=CARTESIAN_POINT('',(0.,0.,6.5));
#277=CARTESIAN_POINT('',(0.,-15.1455,6.5));
#278=CARTESIAN_POINT('',(0.,0.,9.));
#279=CARTESIAN_POINT('',(0.,-15.1455,9.));
#280=CARTESIAN_POINT('',(0.,0.,13.5));
#281=CARTESIAN_POINT('',(0.,0.,0.999999999999999));
#282=CARTESIAN_POINT('',(27.5,0.,0.999999999999999));
#283=CARTESIAN_POINT('',(0.,0.,21.));
#284=CARTESIAN_POINT('',(-27.5,0.,21.));
#285=CARTESIAN_POINT('',(0.,0.,23.));
#286=CARTESIAN_POINT('',(0.,0.,23.));
#287=CARTESIAN_POINT('',(-16.625,0.,23.));
#288=CARTESIAN_POINT('',(0.,0.,23.));
#289=CARTESIAN_POINT('',(-25.5,0.,23.));
#290=CARTESIAN_POINT('',(0.,0.,23.));
#291=CARTESIAN_POINT('',(0.,0.,21.5205));
#292=CARTESIAN_POINT('',(15.1455,0.,21.5205));
#293=CARTESIAN_POINT('',(0.,0.,6.5));
#294=CARTESIAN_POINT('',(0.,0.,1.));
#295=CARTESIAN_POINT('',(-12.8108885108472,0.,1.));
#296=CARTESIAN_POINT('',(0.,0.,1.));
#297=CARTESIAN_POINT('',(0.,0.,21.));
#298=CARTESIAN_POINT('',(0.,0.,0.));
#299=CARTESIAN_POINT('',(0.,0.,6.375));
#300=MECHANICAL_DESIGN_GEOMETRIC_PRESENTATION_REPRESENTATION('',(#120,#121,
#122,#123,#124,#125,#126,#127,#128,#129),#301);
#301=(
GEOMETRIC_REPRESENTATION_CONTEXT(3)
GLOBAL_UNCERTAINTY_ASSIGNED_CONTEXT((#302))
GLOBAL_UNIT_ASSIGNED_CONTEXT((#305,#304,#303))
REPRESENTATION_CONTEXT('10265948','TOP_LEVEL_ASSEMBLY_PART')
);
#302=UNCERTAINTY_MEASURE_WITH_UNIT(LENGTH_MEASURE(0.005),#305,
'DISTANCE_ACCURACY_VALUE','Maximum Tolerance applied to model');
#303=(
NAMED_UNIT(*)
SI_UNIT($,.STERADIAN.)
SOLID_ANGLE_UNIT()
);
#304=(
NAMED_UNIT(*)
PLANE_ANGLE_UNIT()
SI_UNIT($,.RADIAN.)
);
#305=(
LENGTH_UNIT()
NAMED_UNIT(*)
SI_UNIT(.MILLI.,.METRE.)
);
#306=PRODUCT_DEFINITION_SHAPE('','',#307);
#307=PRODUCT_DEFINITION('','',#309,#308);
#308=PRODUCT_DEFINITION_CONTEXT('',#315,'design');
#309=PRODUCT_DEFINITION_FORMATION_WITH_SPECIFIED_SOURCE('','',#311,
 .NOT_KNOWN.);
#310=PRODUCT_RELATED_PRODUCT_CATEGORY('','',(#311));
#311=PRODUCT('10265948','10265948','10265948',(#313));
#312=PRODUCT_CATEGORY('','');
#313=PRODUCT_CONTEXT('',#315,'mechanical');
#314=APPLICATION_PROTOCOL_DEFINITION('international standard',
'automotive_design',2010,#315);
#315=APPLICATION_CONTEXT(
'core data for automotive mechanical design processes');
ENDSEC;
END-ISO-10303-21;
